PinoStudio 1

Full Version: Burning Spear
You're currently viewing a stripped down version of our content. View the full version with proper formatting.
Burning Spear

Winston Rodney (nacido el 1 de marzo de 1945), más conocido como Burning Spear, es un músico y cantante jamaicano de roots reggae. Como muchos otros cantantes jamaicanos de reggae, Burning Spear es conocido por sus mensajes Rastafari.
Rodney nació en Saint Ann's Bay, Saint Ann, Jamaica, como Bob Marley y Marcus Garvey; ambos tuvieron una gran influencia en la vida de Rodney. Garvey por su filosofía, la cual Burning Spear abrazó con agrado, y Marley porque le ayudó directamente a empezar en el mundo de la música. Burning Spear fue originalmente el nombre del grupo de Rodney, llamado después Jomo Kenyatta, como el primer Primer Ministro y Presidente de la independizada Kenia. La fama que fue tomando el nombre del grupo hizo que gradualmente Burning Spear se convirtiera en sinónimo del nombre de Rodney.
Burning Spear ha sido uno de los más fuertes defensores de la autodeterminación propugnada por Marcus Garvey y de la repatriación de todos los descendientes Africanos. Varios de sus trabajos conmemoran este activismo africano.


[Releases]
1973
Burning Spear

1974
Rocking Time

1975
Marcus Garvey

1976
Garvey's Ghost
Man In The Hills
Marcus Garvey - Garvey's Ghost

1977
Dry And Heavy
Live

1978
Living Dub
Marcus Children [aka Social Living]

1980
Hail H.I.M.

1982
Farover

1983
The Fittest Of The Fittest

1986
People Of The World
Resistance

1988
Mistress Music

1992
Living Dub Vol 1
Living Dub Vol 2


[Compilations]
Best Of The Fittest [197X-8X]
Creation Rebel Gold [197X]
Harder Than The Best [1975-77]
Rare And Unreleased [197X-8X]
Reggae Greats [197X]
Sounds From The Burning Spear
Spear Burning [1975-79]
The Best Of Burning Spear [1980-83]
The Best Of Burning Spear [1975-91]
The Original Burning Spear
Travelling [Burning Spear & Friends - 197X]


[Productions]

Burning Spear - Farover [1982]
Burning Spear - Harder Than The Best [1975-77]


[Appears on]

A Tribute To Marcus Garvey
Classic Reggae Mastercuts Volume 1
Clocktower Records Presents Clocktower Dub
Collector's Edition
Dread Broadcasting Corp.
Dubmission
Dubwise & Otherwise
Fire Down Below
Full Up
Heartbeat Reggae
Heavyweight Sound
Honeys
Jack Ruby Presents The Black Foundation
Jah Shaka Presents Dub Masters Vol 1
Knotty Vision
Lloyd Coxsone Presents 12 The Hard Way
Lovers & Rockers
New & Old Sounds
One Big Happy Family
Pirates Choice
Raiders Of The Lost Dub
Respect To Studio 1
Rockers Soundtrack
Sounds And Pressure Vol 5
Spear Burning
Studio 1 Classics - Roots
Studio One Classics
Studio One Kings
The Best Of Studio One Collection
The Kings Of Reggae
This Is Reggae Music
This Is Reggae Music vol 2
This Is Reggae Music Vol 3
Tougher Than Tough
Travelling


Tablaturas - Partituras:

African postman - Burning Spear
Instruments : Bass


G|------------7-5-7-7-----|
D|-------5-5----------5-5-|
A|-7-5--------------------|
E|------------------------|


Bad to worst - Burning Spear

Instruments : Guitar, Bass
     F#m                 F#m             C#m               C#m
G|----------------|-----------------|-----------------|-----------------|
D|4---------------|-----------------|-----------------|-----------------|
A|----------------|------0-----2----|----4---4---4----|----4------------|
E|------------2---|--2--------------|-----------------|-----------------|


Days of slavery - Burning Spear

Instruments : Guitar, Bass


| / / F / / / F / / / D#/ / / D#/ | / / F / / / F / / / D#/ / / D#/ |
|---------------------------------|---------------------------------|
|---------------------------------|---------------------------------|
|---------8-8-8---6-6-----6-------|---------8-8-8---6-6-----6---8---|
|-------8---------------8-----8---|-------8---------------8---------|


Man in the hills - Burning Spear

Instruments : Guitar
Accords :

F#2x et G#2x

F# : 244322
G# : 466544

Christopher Colombus - Burning Spear

Instruments : Guitar, Bass
Intro :
 / / / G / / / G / / / D / C /////
G|---------------------------------|
D|------5--------------------------|
A|----------------------5---3------| x2
E|--3-------3-3--------------------|


Riddim :
 / / / G / / / G / / / G / / / G / / / C / / / C / / / D / / / D
G|----------------------------------------------------------------|
D|----------------------------------------------------------------|
A|----------------------------5-5-3-2-0-------------5-5---0-0-5-0-|
E|--3-------------3-3-3-------------------------------------------|


Referencias: